Kakariko Village on guitar

Discussion in 'GBAtemp Art Studio' started by Quincy, Jul 8, 2011.

  1. Quincy
    OP

    Quincy Your own personal guitarist :3

    Member
    1,436
    66
    Nov 13, 2008
    Netherlands
    Your house, robbing your stuff
    Hia all, I broke up with my GF this morning so I decided to put out my emotions by playing/writing a song on the guitar. I've decided that this would be Kakariko Village theme from OoT.

    Can you guys say what you think? (Note: I just wrote this and played this for one of the first times so mistakes will be there)

    http://soundcloud.com/kosterkont/kakariko-village-v2
     


  2. TheDreamLord

    TheDreamLord GBAtemp Advanced Fan

    Member
    926
    103
    Jun 8, 2011
    Ireland
    [​IMG] U ok?
    U did it very well btw [​IMG]
     
  3. Quincy
    OP

    Quincy Your own personal guitarist :3

    Member
    1,436
    66
    Nov 13, 2008
    Netherlands
    Your house, robbing your stuff
    Yea I'm fine, as I said I put out my emotions trough guitar playing. But thanks for asking [​IMG]

    Thanks! [​IMG]
     
  4. chris888222

    chris888222 GBAtemp's Flygon Fan

    Member
    5,532
    586
    Oct 11, 2010
    Senegal
    Nicely played [​IMG]
     
  5. ianrulz1

    ianrulz1 Member

    Newcomer
    24
    3
    Nov 3, 2010
    not bad man but your guitar needs tuning =]
     
  6. Quincy
    OP

    Quincy Your own personal guitarist :3

    Member
    1,436
    66
    Nov 13, 2008
    Netherlands
    Your house, robbing your stuff
    Pretty new strings, so the bad-ass detunes very quickly [​IMG]
     
  7. Shockwind

    Shockwind DIEEE!!!

    Member
    1,106
    7
    Dec 10, 2010
    Japan
    Nice played, but needs a little tuning, though. [​IMG]
     
  8. Quincy
    OP

    Quincy Your own personal guitarist :3

    Member
    1,436
    66
    Nov 13, 2008
    Netherlands
    Your house, robbing your stuff
    As said before. New strings, you know the hassle [​IMG]

    And to realize I've been only playing for 2 years
     
  9. Sop

    Sop groovy dude lmao

    Banned
    1,244
    207
    Nov 14, 2010
    qld
    It was OK.
    Do you have tabs for it?
     
  10. Quincy
    OP

    Quincy Your own personal guitarist :3

    Member
    1,436
    66
    Nov 13, 2008
    Netherlands
    Your house, robbing your stuff
    For the background I used this one:
    http://tabs.ultimate-guitar.com/k/koji_kon...ge_ver3_tab.htm

    For the melody.. Yea I've written the melody myself but I'll see if I can type that one out for you.
    MELODY:
    E||--------------------------------------3-----------------------|
    B||--------------------------5----------------------------------|
    G||--------------5------------------5----------------------5----|
    D||---------5----------5------------------------------5---------|
    A||--------------------------------------------------------------|
    E||--------------------------------------------------------------|



    -------------------3------3----5-------------5----3------------------|
    -------5-------------------------------------------------5------5----|
    --------------5-----------------------4------------------------------|
    --5------------------------------------------------------------------|
    ---------------------------------------------------------------------|
    ---------------------------------------------------------------------|



    -----------------------------------------------------------------------|
    --5------3-------------------------------------3-----------------------|
    --------------5------------5----5------4-----------5------------------|
    -----------------------------------------------------------5------3----|
    -----------------------------------------------------------------------|
    -----------------------------------------------------------------------|



    ---------------------------------------------------------------3----|
    ---------------------------------------------3-----------------------|
    --------------------------5----5------4-----------5-----------------|
    --2----3------5----2------------------------------------5----------|
    ---------------------------------------------------------------------|
    ---------------------------------------------------------------------|



    ----------------------------||
    --6------5-----3----------||
    -----------------------5----||
    ----------------------------||
    ----------------------------||
    ----------------------------||

    Use it wisely as it was a HELL to type this out.
     
  11. Yumi

    Yumi With Love<3

    Member
    517
    212
    Apr 19, 2010
    Mexico
    Ixtapalapa
    Aw...beautifully done. -tear- [​IMG]
     
  12. Quincy
    OP

    Quincy Your own personal guitarist :3

    Member
    1,436
    66
    Nov 13, 2008
    Netherlands
    Your house, robbing your stuff
    Thanks [​IMG]

    No negative comments so far [​IMG]

    Holy cow! A purple one is reading one of MY topics [​IMG]
     
  13. R2DJ

    R2DJ GBAtemp Advanced Maniac

    Member
    1,900
    15
    Jan 30, 2008
    London
    Wow that felt so soothing! Way to unleash your emotions
     
  14. chris888222

    chris888222 GBAtemp's Flygon Fan

    Member
    5,532
    586
    Oct 11, 2010
    Senegal
    Music is a great way to express emotions (and vent anger on if you have it)

    Better than me I guess. Whenever I feel down I'll throw the yellow pages on the floor
     
  15. Quincy
    OP

    Quincy Your own personal guitarist :3

    Member
    1,436
    66
    Nov 13, 2008
    Netherlands
    Your house, robbing your stuff
    the Yellow Pages.. You mean like the fone book for corps?
     
  16. Delta517

    Delta517 Its okay...Im a ninja ;)

    Member
    1,327
    35
    Nov 25, 2008
    Norway
    Nice played! [​IMG]
    I got a little sad when it were over though... The powerz of the rewind button! [​IMG]
     
  17. Quincy
    OP

    Quincy Your own personal guitarist :3

    Member
    1,436
    66
    Nov 13, 2008
    Netherlands
    Your house, robbing your stuff
    Lmao. I don't play _that_ good.

    Thanks [​IMG]

    These are the reactions I like [​IMG]

    (Bad comment may also be given lol)
     
  18. tigris

    tigris Sentient Existential Anthropomorphic Sweet Potato

    Member
    2,689
    239
    Jun 19, 2010
    The Tibetan Himalayas
    Awesome. Wow. You know how to express emotions.
     
  19. Pendor

    Pendor GBAtemp Advanced Fan

    Member
    567
    3
    May 11, 2008
    United States
    +1

    It was okay. It's a fairly easy song to play anyway (just the arpeggios and the melody) so you can't possibly ruin it.

    Try Vale's Theme from Golden Sun, I love that song (dunno why) and it's easy to play too. I kinda played it by ear once but never bothered to finish.

    There has always been a lack of covers from that game which I find strange. It has some really good tracks.
     
  20. Quincy
    OP

    Quincy Your own personal guitarist :3

    Member
    1,436
    66
    Nov 13, 2008
    Netherlands
    Your house, robbing your stuff
    Thank you [​IMG]